  0
SECTION
  2
HEADER
  9
$ACADVER
  1
AC1009
  9
$INSBASE
 10
0.0
 20
0.0
 30
0.0
  9
$EXTMIN
 10
9.9963383446405487
 20
2.381287252508741
 30
-0.0015258207003583
  9
$EXTMAX
 10
190.00579878222879
 20
270.00824037474621
 30
0.0000000349246037
  9
$LIMMIN
 10
0.0
 20
0.0
  9
$LIMMAX
 10
0.0
 20
0.0
  9
$ORTHOMODE
 70
     0
  9
$REGENMODE
 70
     1
  9
$FILLMODE
 70
     1
  9
$QTEXTMODE
 70
     0
  9
$MIRRTEXT
 70
     1
  9
$DRAGMODE
 70
     2
  9
$LTSCALE
 40
5.0800000000000001
  9
$OSMODE
 70
   231
  9
$ATTMODE
 70
     1
  9
$TEXTSIZE
 40
0.0
  9
$TRACEWID
 40
1.0
  9
$TEXTSTYLE
  7
STANDARD
  9
$CLAYER
  8
DATA
  9
$CELTYPE
  6
BYLAYER
  9
$CECOLOR
 62
   256
  9
$DIMSCALE
 40
1.0
  9
$DIMASZ
 40
0.18
  9
$DIMEXO
 40
0.0625
  9
$DIMDLI
 40
0.38
  9
$DIMRND
 40
0.0
  9
$DIMDLE
 40
0.0
  9
$DIMEXE
 40
0.18
  9
$DIMTP
 40
0.0
  9
$DIMTM
 40
0.0
  9
$DIMTXT
 40
0.18
  9
$DIMCEN
 40
0.09
  9
$DIMTSZ
 40
0.0
  9
$DIMTOL
 70
     0
  9
$DIMLIM
 70
     0
  9
$DIMTIH
 70
     1
  9
$DIMTOH
 70
     1
  9
$DIMSE1
 70
     0
  9
$DIMSE2
 70
     0
  9
$DIMTAD
 70
     0
  9
$DIMZIN
 70
     0
  9
$DIMBLK
  1

  9
$DIMASO
 70
     1
  9
$DIMSHO
 70
     1
  9
$DIMPOST
  1

  9
$DIMAPOST
  1

  9
$DIMALT
 70
     0
  9
$DIMALTD
 70
     2
  9
$DIMALTF
 40
25.399999999999999
  9
$DIMLFAC
 40
1.0
  9
$DIMTOFL
 70
     0
  9
$DIMTVP
 40
0.0
  9
$DIMTIX
 70
     0
  9
$DIMSOXD
 70
     0
  9
$DIMSAH
 70
     0
  9
$DIMBLK1
  1

  9
$DIMBLK2
  1

  9
$DIMSTYLE
  2
STANDARD
  9
$DIMCLRD
 70
     0
  9
$DIMCLRE
 70
     0
  9
$DIMCLRT
 70
     0
  9
$DIMTFAC
 40
1.0
  9
$DIMGAP
 40
0.09
  9
$LUNITS
 70
     2
  9
$LUPREC
 70
     4
  9
$SKETCHINC
 40
0.1
  9
$FILLETRAD
 40
0.0
  9
$AUNITS
 70
     0
  9
$AUPREC
 70
     0
  9
$MENU
  1
acad
  9
$ELEVATION
 40
0.0
  9
$PELEVATION
 40
0.0
  9
$THICKNESS
 40
0.0
  9
$LIMCHECK
 70
     0
  9
$BLIPMODE
 70
     0
  9
$CHAMFERA
 40
0.0
  9
$CHAMFERB
 40
0.0
  9
$SKPOLY
 70
     0
  9
$TDCREATE
 40
2455140.4240624998
  9
$TDUPDATE
 40
2455140.4369825688
  9
$TDINDWG
 40
0.0002710764
  9
$TDUSRTIMER
 40
0.0002710764
  9
$USRTIMER
 70
     1
  9
$ANGBASE
 50
0.0
  9
$ANGDIR
 70
     0
  9
$PDMODE
 70
     1
  9
$PDSIZE
 40
-2.0
  9
$PLINEWID
 40
0.0
  9
$COORDS
 70
     0
  9
$SPLFRAME
 70
     0
  9
$SPLINETYPE
 70
     6
  9
$SPLINESEGS
 70
     8
  9
$ATTDIA
 70
     0
  9
$ATTREQ
 70
     1
  9
$HANDLING
 70
     1
  9
$HANDSEED
  5
219
  9
$SURFTAB1
 70
     6
  9
$SURFTAB2
 70
     6
  9
$SURFTYPE
 70
     6
  9
$SURFU
 70
     6
  9
$SURFV
 70
     6
  9
$UCSNAME
  2

  9
$UCSORG
 10
0.0
 20
0.0
 30
0.0
  9
$UCSXDIR
 10
1.0
 20
0.0
 30
0.0
  9
$UCSYDIR
 10
0.0
 20
1.0
 30
0.0
  9
$PUCSNAME
  2

  9
$PUCSORG
 10
0.0
 20
0.0
 30
0.0
  9
$PUCSXDIR
 10
1.0
 20
0.0
 30
0.0
  9
$PUCSYDIR
 10
0.0
 20
1.0
 30
0.0
  9
$USERI1
 70
     0
  9
$USERI2
 70
     0
  9
$USERI3
 70
     0
  9
$USERI4
 70
     0
  9
$USERI5
 70
     0
  9
$USERR1
 40
0.0
  9
$USERR2
 40
0.0
  9
$USERR3
 40
0.0
  9
$USERR4
 40
0.0
  9
$USERR5
 40
0.0
  9
$WORLDVIEW
 70
     1
  9
$SHADEDGE
 70
     3
  9
$SHADEDIF
 70
    70
  9
$TILEMODE
 70
     1
  9
$MAXACTVP
 70
    64
  9
$PLIMCHECK
 70
     0
  9
$PEXTMIN
 10
1.0000000000000000E+020
 20
1.0000000000000000E+020
 30
1.0000000000000000E+020
  9
$PEXTMAX
 10
-1.0000000000000000E+020
 20
-1.0000000000000000E+020
 30
-1.0000000000000000E+020
  9
$PLIMMIN
 10
0.0
 20
0.0
  9
$PLIMMAX
 10
12.0
 20
9.0
  9
$UNITMODE
 70
     0
  9
$VISRETAIN
 70
     0
  9
$PLINEGEN
 70
     1
  9
$PSLTSCALE
 70
     0
  0
ENDSEC
  0
SECTION
  2
TABLES
  0
TABLE
  2
VPORT
 70
     1
  0
VPORT
  2
*ACTIVE
 70
     0
 10
0.0
 20
0.0
 11
1.0
 21
1.0
 12
100.0010685634346
 22
136.19476381362739
 13
0.0
 23
0.0
 14
1.0
 24
1.0
 15
0.0
 25
0.0
 16
0.0
 26
0.0
 36
1.0
 17
0.0
 27
0.0
 37
0.0
 40
269.62168817656459
 41
1.9863184079601981
 42
50.0
 43
0.0
 44
0.0
 50
0.0
 51
0.0
 71
     0
 72
  2000
 73
     1
 74
     1
 75
     0
 76
     0
 77
     0
 78
     0
  0
ENDTAB
  0
TABLE
  2
LTYPE
 70
    11
  0
LTYPE
  2
CONTINUOUS
 70
     0
  3
Solid line
 72
    65
 73
     0
 40
0.0
  0
ENDTAB
  0
TABLE
  2
LAYER
 70
     6
  0
LAYER
  2
0
 70
     0
 62
     7
  6
CONTINUOUS
  0
LAYER
  2
DATA
 70
     0
 62
     7
  6
CONTINUOUS
  0
LAYER
  2
HIBINO-BASE
 70
     0
 62
     7
  6
CONTINUOUS
  0
LAYER
  2
PATTERN_FILL
 70
     0
 62
     7
  6
CONTINUOUS
  0
LAYER
  2
SPEC
 70
     0
 62
     7
  6
CONTINUOUS
  0
LAYER
  2
DIMNSIONS
 70
     0
 62
     7
  6
CONTINUOUS
  0
ENDTAB
  0
TABLE
  2
STYLE
 70
     3
  0
STYLE
  2
STANDARD
 70
     0
 40
0.0
 41
1.0
 50
0.0
 71
     0
 42
0.0
  3
txt
  4
BIGFONT.SHX
  0
ENDTAB
  0
TABLE
  2
VIEW
 70
     0
  0
ENDTAB
  0
TABLE
  2
UCS
 70
     0
  0
ENDTAB
  0
TABLE
  2
APPID
 70
     3
  0
APPID
  2
ACAD
 70
     0
  0
APPID
  2
ACADANNOTATIVE
 70
     0
  0
APPID
  2
ACAD_MLEADERVER
 70
     0
  0
ENDTAB
  0
TABLE
  2
DIMSTYLE
 70
     2
  0
DIMSTYLE
  2
STANDARD
 70
     0
  3

  4

  5

  6

  7

 40
1.0
 41
0.18
 42
0.0625
 43
0.38
 44
0.18
 45
0.0
 46
0.0
 47
0.0
 48
0.0
140
0.18
141
0.09
142
0.0
143
25.399999999999999
144
1.0
145
0.0
146
1.0
147
0.09
 71
     0
 72
     0
 73
     1
 74
     1
 75
     0
 76
     0
 77
     0
 78
     0
170
     0
171
     2
172
     0
173
     0
174
     0
175
     0
176
     0
177
     0
178
     0
  0
ENDTAB
  0
ENDSEC
  0
SECTION
  2
BLOCKS
  0
BLOCK
  8
0
  2
$MODEL_SPACE
 70
     0
 10
0.0
 20
0.0
 30
0.0
  3
$MODEL_SPACE
  1

  0
ENDBLK
  5
1A8
  8
0
  0
BLOCK
 67
     1
  8
0
  2
$PAPER_SPACE
 70
     0
 10
0.0
 20
0.0
 30
0.0
  3
$PAPER_SPACE
  1

  0
ENDBLK
  5
1A4
 67
     1
  8
0
  0
ENDSEC
  0
SECTION
  2
ENTITIES
  0
LINE
  5
2D
  8
HIBINO-BASE
  6
CONTINUOUS
 62
     7
 10
10.0
 20
270.0
 30
0.0
 11
190.0
 21
270.0
 31
0.0
  0
LINE
  5
2E
  8
HIBINO-BASE
  6
CONTINUOUS
 62
     7
 10
190.0
 20
10.0
 30
0.0
 11
10.0
 21
10.0
 31
0.0
  0
LINE
  5
2F
  8
HIBINO-BASE
  6
CONTINUOUS
 62
     7
 10
10.0
 20
10.0
 30
0.0
 11
10.0
 21
270.0
 31
0.0
  0
TEXT
  5
30
  8
HIBINO-BASE
 62
     7
 10
17.18399999999999
 20
3.591322200000036
 30
0.0
 40
3.6000441796875
  1
Hibino Corporation
 41
0.7
 11
17.18399999999999
 21
7.191366379687536
 31
0.0
 73
     3
  0
LINE
  5
31
  8
HIBINO-BASE
  6
CONTINUOUS
 62
     7
 10
190.0
 20
270.0
 30
0.0
 11
190.0
 21
10.0
 31
0.0
  0
LINE
  5
32
  8
HIBINO-BASE
  6
CONTINUOUS
 62
     7
 10
100.0
 20
32.500000000000007
 30
0.0
 11
190.0
 21
32.500000000000007
 31
0.0
  0
LINE
  5
33
  8
HIBINO-BASE
  6
CONTINUOUS
 62
     7
 10
100.0
 20
10.0
 30
0.0
 11
100.0
 21
32.500000000000007
 31
0.0
  0
TEXT
  5
34
  8
HIBINO-BASE
 62
     7
 10
100.90000000000001
 20
29.991306666666681
 30
0.0
 40
1.6288411458333329
  1
NOTE
 41
0.7
 11
100.90000000000001
 21
31.620147812500011
 31
0.0
 73
     3
  0
LINE
  5
35
  8
HIBINO-BASE
  6
CONTINUOUS
 62
     7
 10
135.0
 20
10.0
 30
0.0
 11
135.0
 21
32.500000000000007
 31
0.0
  0
TEXT
  5
36
  8
HIBINO-BASE
 62
     7
 10
135.89999999999989
 20
29.991306666666681
 30
0.0
 40
1.6288411458333329
  1
TITLE
 41
0.7
 11
135.89999999999989
 21
31.620147812500011
 31
0.0
 73
     3
  0
TEXT
  5
37
  8
HIBINO-BASE
 62
     7
 10
150.06838999999991
 20
3.591322200000036
 30
0.0
 40
3.6000441796875
  1
ヒビノ株式会社
 41
0.7
 11
150.06838999999991
 21
7.191366379687536
 31
0.0
 73
     3
  0
LINE
  5
38
  8
HIBINO-BASE
  6
CONTINUOUS
 62
     7
 10
100.0
 20
20.000000000000011
 30
0.0
 11
190.0
 21
20.000000000000011
 31
0.0
  0
TEXT
  5
39
  8
HIBINO-BASE
 62
     7
 10
148.39999999999989
 20
17.54762666666667
 30
0.0
 40
1.6288411458333329
  1
DRAWN
 41
0.7
 11
148.39999999999989
 21
19.176467812500011
 31
0.0
 73
     3
  0
TEXT
  5
3A
  8
HIBINO-BASE
 62
     7
 10
123.39999999999991
 20
17.54762666666667
 30
0.0
 40
1.6288411458333329
  1
DATE
 41
0.7
 11
123.39999999999991
 21
19.176467812500011
 31
0.0
 73
     3
  0
TEXT
  5
3B
  8
HIBINO-BASE
 62
     7
 10
113.40000000000001
 20
17.54762666666667
 30
0.0
 40
1.6288411458333329
  1
SCALE
 41
0.7
 11
113.40000000000001
 21
19.176467812500011
 31
0.0
 73
     3
  0
TEXT
  5
3C
  8
HIBINO-BASE
 62
     7
 10
135.89999999999989
 20
17.54762666666667
 30
0.0
 40
1.6288411458333329
  1
DESIGN
 41
0.7
 11
135.89999999999989
 21
19.176467812500011
 31
0.0
 73
     3
  0
TEXT
  5
3D
  8
HIBINO-BASE
 62
     7
 10
173.39999999999989
 20
17.54762666666667
 30
0.0
 40
1.6288411458333329
  1
DRAWING NO.
 41
0.7
 11
173.39999999999989
 21
19.176467812500011
 31
0.0
 73
     3
  0
TEXT
  5
3E
  8
HIBINO-BASE
 62
     7
 10
160.89999999999989
 20
17.54762666666667
 30
0.0
 40
1.6288411458333329
  1
CHECK
 41
0.7
 11
160.89999999999989
 21
19.176467812500011
 31
0.0
 73
     3
  0
LINE
  5
3F
  8
HIBINO-BASE
  6
CONTINUOUS
 62
     7
 10
114.375
 20
11.25
 30
0.0
 11
118.125
 21
15.000000000000011
 31
0.0
  0
TEXT
  5
40
  8
HIBINO-BASE
 62
     7
 10
113.75
 20
13.891056666666669
 30
0.0
 40
1.6288411458333329
  1
1
 41
0.7
 11
113.75
 21
15.5198978125
 31
0.0
 73
     3
  0
LINE
  5
41
  8
HIBINO-BASE
  6
CONTINUOUS
 62
     7
 10
112.5
 20
10.0
 30
0.0
 11
112.5
 21
20.000000000000011
 31
0.0
  0
LINE
  5
42
  8
HIBINO-BASE
  6
CONTINUOUS
 62
     7
 10
122.5
 20
10.0
 30
0.0
 11
122.5
 21
20.000000000000011
 31
0.0
  0
LINE
  5
43
  8
HIBINO-BASE
  6
CONTINUOUS
 62
     7
 10
147.49999999999989
 20
20.000000000000011
 30
0.0
 11
147.49999999999989
 21
10.0
 31
0.0
  0
LINE
  5
44
  8
HIBINO-BASE
  6
CONTINUOUS
 62
     7
 10
172.5
 20
20.000000000000011
 30
0.0
 11
172.5
 21
10.0
 31
0.0
  0
LINE
  5
45
  8
HIBINO-BASE
  6
CONTINUOUS
 62
     7
 10
159.99999999999989
 20
10.0
 30
0.0
 11
159.99999999999989
 21
20.000000000000011
 31
0.0
  0
TEXT
  5
46
  8
HIBINO-BASE
 62
     7
 10
123.35654
 20
12.86364666666667
 30
0.0
 40
1.6288411458333329
  1
'09.07.
 41
0.7
 11
123.35654
 21
14.4924878125
 31
0.0
 73
     3
  0
TEXT
  5
47
  8
HIBINO-BASE
 62
     7
 10
117.5
 20
12.016056666666669
 30
0.0
 40
1.6288411458333329
  1
1
 41
0.7
 11
117.5
 21
13.6448978125
 31
0.0
 73
     3
  0
TEXT
  5
48
  8
HIBINO-BASE
 62
     7
 10
149.00581001103461
 20
12.86364666666667
 30
0.0
 40
1.6288411458333329
  1
N.Sasaki
 41
0.7
 11
149.00581001103461
 21
14.4924878125
 31
0.0
 73
     3
  0
TEXT
  5
49
  8
HIBINO-BASE
 62
     7
 10
103.8833333333333
 20
11.97600000000001
 30
0.0
 40
3.2576822916666659
  1
A4
 41
0.7
 11
103.8833333333333
 21
15.23368229166668
 31
0.0
 73
     3
  0
TEXT
  5
4A
  8
HIBINO-BASE
 62
     7
 10
100.9583333333333
 20
17.380545000000009
 30
0.0
 40
1.6288411458333329
  1
PAPER SIZE
 41
0.7
 11
100.9583333333333
 21
19.009386145833339
 31
0.0
 73
     3
  0
LINE
  5
4B
  8
PATTERN_FILL
  6
CONTINUOUS
 62
     7
 10
42.397352698849353
 20
121.7500000002191
 30
0.0
 11
43.436583183390667
 21
123.5500000002191
 31
0.0
  0
LINE
  5
4C
  8
PATTERN_FILL
  6
CONTINUOUS
 62
     7
 10
43.19735269884935
 20
121.7500000002191
 30
0.0
 11
44.236583183390678
 21
123.5500000002191
 31
0.0
  0
LINE
  5
4D
  8
PATTERN_FILL
  6
CONTINUOUS
 62
     7
 10
43.997352698849348
 20
121.7500000002191
 30
0.0
 11
45.036583183390682
 21
123.5500000002191
 31
0.0
  0
LINE
  5
4E
  8
PATTERN_FILL
  6
CONTINUOUS
 62
     7
 10
44.797352698849352
 20
121.7500000002191
 30
0.0
 11
45.83658318339068
 21
123.5500000002191
 31
0.0
  0
LINE
  5
4F
  8
PATTERN_FILL
  6
CONTINUOUS
 62
     7
 10
45.682586221222749
 20
121.7500000002191
 30
0.0
 11
44.643355736681428
 21
123.5500000002191
 31
0.0
  0
LINE
  5
50
  8
PATTERN_FILL
  6
CONTINUOUS
 62
     7
 10
44.882586221222738
 20
121.7500000002191
 30
0.0
 11
43.843355736681417
 21
123.5500000002191
 31
0.0
  0
LINE
  5
51
  8
PATTERN_FILL
  6
CONTINUOUS
 62
     7
 10
44.082586221222748
 20
121.7500000002191
 30
0.0
 11
43.043355736681427
 21
123.5500000002191
 31
0.0
  0
LINE
  5
52
  8
PATTERN_FILL
  6
CONTINUOUS
 62
     7
 10
40.797352698849352
 20
121.7500000002191
 30
0.0
 11
41.836583183390673
 21
123.5500000002191
 31
0.0
  0
LINE
  5
53
  8
PATTERN_FILL
  6
CONTINUOUS
 62
     7
 10
41.597352698849363
 20
121.7500000002191
 30
0.0
 11
42.63658318339067
 21
123.5500000002191
 31
0.0
  0
LINE
  5
54
  8
PATTERN_FILL
  6
CONTINUOUS
 62
     7
 10
43.282586221222751
 20
121.7500000002191
 30
0.0
 11
42.243355736681423
 21
123.5500000002191
 31
0.0
  0
LINE
  5
55
  8
PATTERN_FILL
  6
CONTINUOUS
 62
     7
 10
42.482586221222761
 20
121.7500000002191
 30
0.0
 11
41.443355736681433
 21
123.5500000002191
 31
0.0
  0
LINE
  5
56
  8
PATTERN_FILL
  6
CONTINUOUS
 62
     7
 10
41.682586221222763
 20
121.7500000002191
 30
0.0
 11
40.643355736681428
 21
123.5500000002191
 31
0.0
  0
LINE
  5
57
  8
PATTERN_FILL
  6
CONTINUOUS
 62
     7
 10
45.597352698849349
 20
121.7500000002191
 30
0.0
 11
46.636583183390677
 21
123.5500000002191
 31
0.0
  0
LINE
  5
58
  8
PATTERN_FILL
  6
CONTINUOUS
 62
     7
 10
47.276432897502893
 20
121.7606578695374
 30
0.0
 11
46.243355736681423
 21
123.5500000002191
 31
0.0
  0
LINE
  5
59
  8
PATTERN_FILL
  6
CONTINUOUS
 62
     7
 10
46.482586221222753
 20
121.7500000002191
 30
0.0
 11
45.443355736681433
 21
123.5500000002191
 31
0.0
  0
LINE
  5
5A
  8
PATTERN_FILL
  6
CONTINUOUS
 62
     7
 10
39.67374755706691
 20
122.5751400991165
 30
0.0
 11
40.236583183390671
 21
123.5500000002191
 31
0.0
  0
LINE
  5
5B
  8
PATTERN_FILL
  6
CONTINUOUS
 62
     7
 10
40.882586221222759
 20
121.7500000002191
 30
0.0
 11
39.893113502446312
 21
123.4638170218433
 31
0.0
  0
LINE
  5
5C
  8
PATTERN_FILL
  6
CONTINUOUS
 62
     7
 10
40.077147388059359
 20
121.759420335592
 30
0.0
 11
39.67374755706691
 21
122.4581293386357
 31
0.0
  0
LINE
  5
5D
  8
PATTERN_FILL
  6
CONTINUOUS
 62
     7
 10
40.012730902724442
 20
121.77663583066
 30
0.0
 11
41.036583183390682
 21
123.5500000002191
 31
0.0
  0
LINE
  5
5E
  8
PATTERN_FILL
  6
CONTINUOUS
 62
     7
 10
47.197683674325532
 20
121.7505732665599
 30
0.0
 11
47.67374755706691
 21
122.5751400991165
 31
0.0
  0
LINE
  5
5F
  8
PATTERN_FILL
  6
CONTINUOUS
 62
     7
 10
46.397352698849353
 20
121.7500000002191
 30
0.0
 11
47.404117420286923
 21
123.4937676490169
 31
0.0
  0
LINE
  5
60
  8
PATTERN_FILL
  6
CONTINUOUS
 62
     7
 10
47.67374755706691
 20
122.4581293386356
 30
0.0
 11
47.043355736681413
 21
123.5500000002191
 31
0.0
  0
LINE
  5
61
  8
SPEC
  6
CONTINUOUS
 62
     7
 10
17.5
 20
260.0
 30
0.0
 11
165.0
 21
260.0
 31
0.0
  0
LINE
  5
62
  8
SPEC
  6
CONTINUOUS
 62
     7
 10
17.5
 20
256.25
 30
0.0
 11
165.0
 21
256.25
 31
0.0
  0
LINE
  5
63
  8
SPEC
  6
CONTINUOUS
 62
     7
 10
17.5
 20
241.25
 30
0.0
 11
165.0
 21
241.25
 31
0.0
  0
LINE
  5
64
  8
SPEC
  6
CONTINUOUS
 62
     7
 10
17.5
 20
245.0
 30
0.0
 11
165.0
 21
245.0
 31
0.0
  0
LINE
  5
65
  8
SPEC
  6
CONTINUOUS
 62
     7
 10
17.5
 20
248.75
 30
0.0
 11
165.0
 21
248.75
 31
0.0
  0
LINE
  5
66
  8
SPEC
  6
CONTINUOUS
 62
     7
 10
17.5
 20
237.5
 30
0.0
 11
165.0
 21
237.5
 31
0.0
  0
LINE
  5
67
  8
SPEC
  6
CONTINUOUS
 62
     7
 10
17.5
 20
230.0
 30
0.0
 11
165.0
 21
230.0
 31
0.0
  0
LINE
  5
68
  8
SPEC
  6
CONTINUOUS
 62
     7
 10
17.5
 20
233.75
 30
0.0
 11
165.0
 21
233.75
 31
0.0
  0
LINE
  5
69
  8
SPEC
  6
CONTINUOUS
 62
     7
 10
17.5
 20
252.5
 30
0.0
 11
165.0
 21
252.5
 31
0.0
  0
LINE
  5
6A
  8
SPEC
  6
CONTINUOUS
 62
     7
 10
17.5
 20
260.0
 30
0.0
 11
17.5
 21
211.25
 31
0.0
  0
TEXT
  5
6B
  8
SPEC
 62
     7
 10
18.75
 20
261.39326999999997
 30
0.0
 40
2.4432617187500001
  1
仕様
 41
0.7
 11
18.75
 21
263.83653171875
 31
0.0
 73
     3
  0
LINE
  5
6C
  8
SPEC
  6
CONTINUOUS
 62
     7
 10
50.0
 20
260.0
 30
0.0
 11
50.0
 21
211.25
 31
0.0
  0
LINE
  5
6D
  8
SPEC
  6
CONTINUOUS
 62
     7
 10
165.0
 20
260.0
 30
0.0
 11
165.0
 21
211.25
 31
0.0
  0
TEXT
  5
6E
  8
SPEC
 62
     7
 10
18.374478992521151
 20
257.15166794168999
 30
0.0
 40
1.900314670138888
  1
形式
 41
0.7
 11
18.374478992521151
 21
259.05198261182881
 31
0.0
 73
     3
  0
TEXT
  5
6F
  8
SPEC
 62
     7
 10
18.31071121608711
 20
219.81510295450551
 30
0.0
 40
1.900314670138888
  1
寸法
 41
0.7
 11
18.31071121608711
 21
221.71541762464449
 31
0.0
 73
     3
  0
TEXT
  5
70
  8
SPEC
 62
     7
 10
50.630821836314233
 20
219.67604941306061
 30
0.0
 40
1.900314670138888
  1
\U+03A67.8\U+00D71745mm(突起部含まず)
 41
0.7
 11
50.630821836314233
 21
221.57636408319951
 31
0.0
 73
     3
  0
TEXT
  5
71
  8
SPEC
 62
     7
 10
50.867917729499567
 20
215.8871711972761
 30
0.0
 40
1.900314670138888
  1
約20g
 41
0.7
 11
50.867917729499567
 21
217.787485867415
 31
0.0
 73
     3
  0
TEXT
  5
72
  8
SPEC
 62
     7
 10
18.361267489485211
 20
215.9402325161075
 30
0.0
 40
1.900314670138888
  1
重量
 41
0.7
 11
18.361267489485211
 21
217.84054718624651
 31
0.0
 73
     3
  0
TEXT
  5
73
  8
SPEC
 62
     7
 10
50.620067886635063
 20
257.22259185705963
 30
0.0
 40
1.900314670138888
  1
コンデンサー型 
 41
0.7
 11
50.620067886635063
 21
259.12290652719838
 31
0.0
 73
     3
  0
TEXT
  5
74
  8
SPEC
 62
     7
 10
50.676697192760066
 20
212.23891930872881
 30
0.0
 40
1.900314670138888
  1
ウインドスクリーン,専用クリップ
 41
0.7
 11
50.676697192760066
 21
214.13923397886771
 31
0.0
 73
     3
  0
TEXT
  5
75
  8
SPEC
 62
     7
 10
18.45005636944186
 20
249.6784999384289
 30
0.0
 40
1.900314670138888
  1
周波数特性
 41
0.7
 11
18.45005636944186
 21
251.5788146085678
 31
0.0
 73
     3
  0
TEXT
  5
76
  8
SPEC
 62
     7
 10
50.923124672102368
 20
249.67519212566631
 30
0.0
 40
1.900314670138888
  1
15Hz～18kHz
 41
0.7
 11
50.923124672102368
 21
251.57550679580521
 31
0.0
 73
     3
  0
TEXT
  5
77
  8
SPEC
 62
     7
 10
18.318237663996229
 20
245.9436666642498
 30
0.0
 40
1.900314670138888
  1
開回路感度
 41
0.7
 11
18.318237663996229
 21
247.8439813343887
 31
0.0
 73
     3
  0
TEXT
  5
78
  8
SPEC
 62
     7
 10
50.876250692287719
 20
246.0159312962021
 30
0.0
 40
1.900314670138888
  1
ー41dBV re 1V/Pa
 41
0.7
 11
50.876250692287719
 21
247.91624596634099
 31
0.0
 73
     3
  0
TEXT
  5
79
  8
SPEC
 62
     7
 10
18.415037606599519
 20
242.20885127257591
 30
0.0
 40
1.900314670138888
  1
最大音圧レベル
 41
0.7
 11
18.415037606599519
 21
244.10916594271481
 31
0.0
 73
     3
  0
TEXT
  5
7A
  8
SPEC
 62
     7
 10
50.82237099792664
 20
242.1843878753958
 30
0.0
 40
1.900314670138888
  1
118dB SPL（THD 1%%%）
 41
0.7
 11
50.82237099792664
 21
244.08470254553461
 31
0.0
 73
     3
  0
TEXT
  5
7B
  8
SPEC
 62
     7
 10
18.361630947788601
 20
238.4344166622985
 30
0.0
 40
1.900314670138888
  1
等価雑音レベル
 41
0.7
 11
18.361630947788601
 21
240.3347313324374
 31
0.0
 73
     3
  0
TEXT
  5
7C
  8
SPEC
 62
     7
 10
50.883417625447883
 20
238.41514616509971
 30
0.0
 40
1.900314670138888
  1
34dB SPL（Aウェイト）
 41
0.7
 11
50.883417625447883
 21
240.31546083523861
 31
0.0
 73
     3
  0
TEXT
  5
7D
  8
SPEC
 62
     7
 10
18.429525105814339
 20
212.26949848658279
 30
0.0
 40
1.900314670138888
  1
付属品
 41
0.7
 11
18.429525105814339
 21
214.16981315672169
 31
0.0
 73
     3
  0
TEXT
  5
7E
  8
SPEC
 62
     7
 10
18.361630947788601
 20
234.6844166622985
 30
0.0
 40
1.900314670138888
  1
インピーダンス
 41
0.7
 11
18.361630947788601
 21
236.5847313324374
 31
0.0
 73
     3
  0
TEXT
  5
7F
  8
SPEC
 62
     7
 10
50.903410813163823
 20
234.66514616509971
 30
0.0
 40
1.900314670138888
  1
200\U+03A9以下
 41
0.7
 11
50.903410813163823
 21
236.56546083523861
 31
0.0
 73
     3
  0
TEXT
  5
80
  8
SPEC
 62
     7
 10
18.361630947788601
 20
230.9344166622985
 30
0.0
 40
1.900314670138888
  1
電源
 41
0.7
 11
18.361630947788601
 21
232.8347313324374
 31
0.0
 73
     3
  0
TEXT
  5
81
  8
SPEC
 62
     7
 10
50.87005729865389
 20
230.9418668186876
 30
0.0
 40
1.900314670138888
  1
別売のAKGワイヤレスシステムのボディーパック型 送信機に対応。
 41
0.7
 11
50.87005729865389
 21
232.8421814888265
 31
0.0
 73
     3
  0
TEXT
  5
82
  8
SPEC
 62
     7
 10
18.14970871109082
 20
223.5857896885112
 30
0.0
 40
1.900314670138888
  1
コネクター
 41
0.7
 11
18.14970871109082
 21
225.4861043586501
 31
0.0
 73
     3
  0
TEXT
  5
83
  8
SPEC
 62
     7
 10
50.461903791463413
 20
223.3750019904345
 30
0.0
 40
1.900314670138888
  1
ミニXLR3ピン メス
 41
0.7
 11
50.461903791463413
 21
225.2753166605734
 31
0.0
 73
     3
  0
LINE
  5
84
  8
SPEC
  6
CONTINUOUS
 62
     7
 10
17.5
 20
226.25
 30
0.0
 11
165.0
 21
226.25
 31
0.0
  0
LINE
  5
85
  8
SPEC
  6
CONTINUOUS
 62
     7
 10
17.5
 20
222.5
 30
0.0
 11
165.0
 21
222.5
 31
0.0
  0
LINE
  5
86
  8
SPEC
  6
CONTINUOUS
 62
     7
 10
17.5
 20
218.75
 30
0.0
 11
165.0
 21
218.75
 31
0.0
  0
LINE
  5
87
  8
SPEC
  6
CONTINUOUS
 62
     7
 10
17.5
 20
215.0
 30
0.0
 11
165.0
 21
215.0
 31
0.0
  0
TEXT
  5
88
  8
SPEC
 62
     7
 10
18.374478992521151
 20
253.40166794168999
 30
0.0
 40
1.900314670138888
  1
指向特性
 41
0.7
 11
18.374478992521151
 21
255.30198261182889
 31
0.0
 73
     3
  0
TEXT
  5
89
  8
SPEC
 62
     7
 10
50.620067886635063
 20
253.47259185705951
 30
0.0
 40
1.900314670138888
  1
カーディオイド
 41
0.7
 11
50.620067886635063
 21
255.37290652719841
 31
0.0
 73
     3
  0
LINE
  5
8A
  8
SPEC
  6
CONTINUOUS
 62
     7
 10
17.5
 20
211.25
 30
0.0
 11
165.0
 21
211.25
 31
0.0
  0
TEXT
  5
8B
  8
SPEC
 62
     7
 10
18.14970871109082
 20
227.3357896885112
 30
0.0
 40
1.900314670138888
  1
ケーブル長
 41
0.7
 11
18.14970871109082
 21
229.2361043586501
 31
0.0
 73
     3
  0
TEXT
  5
8C
  8
SPEC
 62
     7
 10
50.461903791463413
 20
227.1250019904345
 30
0.0
 40
1.900314670138888
  1
1745mm(マイク,コネクター含む)
 41
0.7
 11
50.461903791463413
 21
229.0253166605734
 31
0.0
 73
     3
  0
TEXT
  5
8D
  8
DIMNSIONS
 62
     7
 10
79.999999999999986
 20
22.269490000000012
 30
0.0
 40
2.4432617187500001
  1
(単位：mm)
 41
0.7
 11
79.999999999999986
 21
24.71275171875001
 31
0.0
 73
     3
  0
LINE
  5
8E
  8
DIMNSIONS
  6
CONTINUOUS
 62
     7
 10
23.902337916750909
 20
125.9816513882401
 30
0.0
 11
28.125
 21
132.9210164909
 31
0.0
  0
LINE
  5
8F
  8
DIMNSIONS
  6
CONTINUOUS
 62
     7
 10
23.902337916750909
 20
125.9816513882401
 30
0.0
 11
24.659240010499659
 21
128.4573665835143
 31
0.0
  0
LINE
  5
90
  8
DIMNSIONS
  6
CONTINUOUS
 62
     7
 10
23.902337916750909
 20
125.9816513882401
 30
0.0
 11
25.795691955752069
 21
127.74723259300841
 31
0.0
  0
LINE
  5
91
  8
DIMNSIONS
  6
CONTINUOUS
 62
     7
 10
28.125
 20
132.9210164909
 30
0.0
 11
38.944444444444443
 21
132.9210164909
 31
0.0
  0
TEXT
  5
92
  8
DIMNSIONS
 62
     7
 10
30.125
 20
133.91490537978879
 30
0.0
 40
2.7147352430555549
  1
\U+03C67.8
 41
0.7
 11
30.125
 21
136.62964062284439
 31
0.0
 73
     3
  0
LINE
  5
93
  8
DIMNSIONS
  6
CONTINUOUS
 62
     7
 10
31.25
 20
117.15000000021909
 30
0.0
 11
31.25
 21
107.375
 31
0.0
  0
LINE
  5
94
  8
DIMNSIONS
  6
CONTINUOUS
 62
     7
 10
54.25
 20
117.8500000002191
 30
0.0
 11
54.25
 21
107.375
 31
0.0
  0
LINE
  5
95
  8
DIMNSIONS
  6
CONTINUOUS
 62
     7
 10
31.25
 20
109.375
 30
0.0
 11
54.25
 21
109.375
 31
0.0
  0
LINE
  5
96
  8
DIMNSIONS
  6
CONTINUOUS
 62
     7
 10
31.25
 20
109.375
 30
0.0
 11
33.750622558593747
 21
110.0450397951502
 31
0.0
  0
LINE
  5
97
  8
DIMNSIONS
  6
CONTINUOUS
 62
     7
 10
31.25
 20
109.375
 30
0.0
 11
33.750622558593747
 21
108.7049602048497
 31
0.0
  0
LINE
  5
98
  8
DIMNSIONS
  6
CONTINUOUS
 62
     7
 10
54.25
 20
109.375
 30
0.0
 11
51.749377441406253
 21
108.7049602048497
 31
0.0
  0
LINE
  5
99
  8
DIMNSIONS
  6
CONTINUOUS
 62
     7
 10
54.25
 20
109.375
 30
0.0
 11
51.749377441406253
 21
110.0450397951502
 31
0.0
  0
TEXT
  5
9A
  8
DIMNSIONS
 62
     7
 10
40.986111111111107
 20
110.3688888888889
 30
0.0
 40
2.7147352430555549
  1
23
 41
0.7
 11
40.986111111111107
 21
113.0836241319444
 31
0.0
 73
     3
  0
LINE
  5
9B
  8
DIMNSIONS
  6
CONTINUOUS
 62
     7
 10
131.25027000000691
 20
116.1500550002192
 30
0.0
 11
131.25027000000691
 21
107.375
 31
0.0
  0
LINE
  5
9C
  8
DIMNSIONS
  6
CONTINUOUS
 62
     7
 10
166.75000000000711
 20
116.6500550002192
 30
0.0
 11
166.75000000000711
 21
107.375
 31
0.0
  0
LINE
  5
9D
  8
DIMNSIONS
  6
CONTINUOUS
 62
     7
 10
131.25027000000691
 20
109.375
 30
0.0
 11
166.75000000000711
 21
109.375
 31
0.0
  0
LINE
  5
9E
  8
DIMNSIONS
  6
CONTINUOUS
 62
     7
 10
131.25027000000691
 20
109.375
 30
0.0
 11
133.75089255860061
 21
110.0450397951502
 31
0.0
  0
LINE
  5
9F
  8
DIMNSIONS
  6
CONTINUOUS
 62
     7
 10
131.25027000000691
 20
109.375
 30
0.0
 11
133.75089255860061
 21
108.7049602048497
 31
0.0
  0
LINE
  5
A0
  8
DIMNSIONS
  6
CONTINUOUS
 62
     7
 10
166.75000000000711
 20
109.375
 30
0.0
 11
164.2493774414134
 21
108.7049602048497
 31
0.0
  0
LINE
  5
A1
  8
DIMNSIONS
  6
CONTINUOUS
 62
     7
 10
166.75000000000711
 20
109.375
 30
0.0
 11
164.2493774414134
 21
110.0450397951502
 31
0.0
  0
TEXT
  5
A2
  8
DIMNSIONS
 62
     7
 10
145.47235722222919
 20
110.3688888888889
 30
0.0
 40
2.7147352430555549
  1
35.5
 41
0.7
 11
145.47235722222919
 21
113.0836241319444
 31
0.0
 73
     3
  0
LINE
  5
A3
  8
DIMNSIONS
  6
CONTINUOUS
 62
     7
 10
31.25
 20
117.15000000021909
 30
0.0
 11
31.25
 21
101.125
 31
0.0
  0
LINE
  5
A4
  8
DIMNSIONS
  6
CONTINUOUS
 62
     7
 10
166.75000000000711
 20
116.6500550002192
 30
0.0
 11
166.75000000000711
 21
101.125
 31
0.0
  0
LINE
  5
A5
  8
DIMNSIONS
  6
CONTINUOUS
 62
     7
 10
31.25
 20
103.125
 30
0.0
 11
166.75000000000711
 21
103.125
 31
0.0
  0
LINE
  5
A6
  8
DIMNSIONS
  6
CONTINUOUS
 62
     7
 10
31.25
 20
103.125
 30
0.0
 11
33.750622558593747
 21
103.7950397951502
 31
0.0
  0
LINE
  5
A7
  8
DIMNSIONS
  6
CONTINUOUS
 62
     7
 10
31.25
 20
103.125
 30
0.0
 11
33.750622558593747
 21
102.4549602048497
 31
0.0
  0
LINE
  5
A8
  8
DIMNSIONS
  6
CONTINUOUS
 62
     7
 10
166.75000000000711
 20
103.125
 30
0.0
 11
164.2493774414134
 21
102.4549602048497
 31
0.0
  0
LINE
  5
A9
  8
DIMNSIONS
  6
CONTINUOUS
 62
     7
 10
166.75000000000711
 20
103.125
 30
0.0
 11
164.2493774414134
 21
103.7950397951502
 31
0.0
  0
TEXT
  5
AA
  8
DIMNSIONS
 62
     7
 10
95.472222222225795
 20
104.1188888888889
 30
0.0
 40
2.7147352430555549
  1
1745
 41
0.7
 11
95.472222222225795
 21
106.8336241319444
 31
0.0
 73
     3
  0
TEXT
  5
AB
  8
DATA
 62
     7
 10
150.0
 20
21.130890000000011
 30
0.0
 40
2.4432617187500001
  1
CK55L
 41
0.7
 11
150.0
 21
23.574151718750009
 31
0.0
 73
     3
  0
TEXT
  5
AC
  8
DATA
 62
     7
 10
150.0
 20
28.380890000000011
 30
0.0
 40
2.4432617187500001
  1
AKG
 41
0.7
 11
150.0
 21
30.824151718750009
 31
0.0
 73
     3
  0
TEXT
  5
AD
  8
DATA
 62
     7
 10
147.49999999999989
 20
24.903933800000011
 30
0.0
 40
1.6288437109374989
  1
ラベリア・マイクロホン
 41
0.7
 11
147.49999999999989
 21
26.53277751093751
 31
0.0
 73
     3
  0
TEXT
  5
AE
  8
DATA
 62
     7
 10
20.0
 20
14.238
 30
0.0
 40
1.6288411458333329
  1
仕様および外観は予告なく変更されることがありますので、ご了承ください。
 41
0.7
 11
20.0
 21
15.86684114583333
 31
0.0
 73
     3
  0
LINE
  5
AF
  8
DATA
  6
CONTINUOUS
 62
     7
 10
131.25027000000691
 20
127.14994500021911
 30
0.0
 11
144.25019000000711
 21
127.89994500021911
 31
0.0
  0
LINE
  5
B0
  8
DATA
  6
CONTINUOUS
 62
     7
 10
131.25027000000691
 20
118.1500550002192
 30
0.0
 11
144.25019000000711
 21
117.4000550002192
 31
0.0
  0
LINE
  5
B1
  8
DATA
  6
CONTINUOUS
 62
     7
 10
131.25027000000691
 20
127.14994500021911
 30
0.0
 11
131.25027000000691
 21
118.1500550002192
 31
0.0
  0
LINE
  5
B2
  8
DATA
  6
CONTINUOUS
 62
     7
 10
144.25019000000711
 20
127.89994500021911
 30
0.0
 11
150.7502400000071
 21
127.89994500021911
 31
0.0
  0
LINE
  5
B3
  8
DATA
  6
CONTINUOUS
 62
     7
 10
144.25019000000711
 20
117.4000550002192
 30
0.0
 11
150.7502400000071
 21
117.4000550002192
 31
0.0
  0
LINE
  5
B4
  8
DATA
  6
CONTINUOUS
 62
     7
 10
150.7502400000071
 20
127.89994500021911
 30
0.0
 11
150.7502400000071
 21
117.4000550002192
 31
0.0
  0
LINE
  5
B5
  8
DATA
  6
CONTINUOUS
 62
     7
 10
150.7502400000071
 20
127.89994500021911
 30
0.0
 11
158.2500200000072
 21
127.89994500021911
 31
0.0
  0
LINE
  5
B6
  8
DATA
  6
CONTINUOUS
 62
     7
 10
158.2500200000072
 20
117.4000550002192
 30
0.0
 11
150.7502400000071
 21
117.4000550002192
 31
0.0
  0
LINE
  5
B7
  8
DATA
  6
CONTINUOUS
 62
     7
 10
158.2500200000072
 20
127.89994500021911
 30
0.0
 11
158.2500200000072
 21
117.4000550002192
 31
0.0
  0
LINE
  5
B8
  8
DATA
  6
CONTINUOUS
 62
     7
 10
158.2500200000072
 20
118.6500550002192
 30
0.0
 11
166.75000000000711
 21
118.6500550002192
 31
0.0
  0
LINE
  5
B9
  8
DATA
  6
CONTINUOUS
 62
     7
 10
166.75000000000711
 20
118.6500550002192
 30
0.0
 11
166.75000000000711
 21
126.64994500021911
 31
0.0
  0
LINE
  5
BA
  8
DATA
  6
CONTINUOUS
 62
     7
 10
150.85016000000709
 20
127.89994500021911
 30
0.0
 11
150.85016000000709
 21
117.4000550002192
 31
0.0
  0
LINE
  5
BB
  8
DATA
  6
CONTINUOUS
 62
     7
 10
166.25000000000719
 20
127.69006500021911
 30
0.0
 11
166.25000000000719
 21
126.64994500021911
 31
0.0
  0
LINE
  5
BC
  8
DATA
  6
CONTINUOUS
 62
     7
 10
166.0501200000073
 20
126.64994500021911
 30
0.0
 11
166.0501200000073
 21
127.45013500021911
 31
0.0
  0
POLYLINE
  5
BD
  8
DATA
  6
CONTINUOUS
 62
     7
 66
     1
 10
0.0
 20
0.0
 30
0.0
 70
   129
  0
VERTEX
  5
1D7
  8
DATA
  6
CONTINUOUS
 62
     7
 10
161.72503000000711
 20
126.8610350002191
 30
0.0
  0
VERTEX
  5
1D8
  8
DATA
  6
CONTINUOUS
 62
     7
 10
161.726392746801
 20
126.8606174688689
 30
0.0
  0
VERTEX
  5
1D9
  8
DATA
  6
CONTINUOUS
 62
     7
 10
161.7263927468012
 20
126.8606174688688
 30
0.0
 42
0.0515215183440875
  0
VERTEX
  5
1DA
  8
DATA
  6
CONTINUOUS
 62
     7
 10
161.7501300000072
 20
126.85594500021909
 30
0.0
  0
SEQEND
  5
1DB
  8
DATA
  6
CONTINUOUS
 62
     7
  0
LINE
  5
C3
  8
DATA
  6
CONTINUOUS
 62
     7
 10
166.0501200000073
 20
127.45013500021911
 30
0.0
 11
161.7741100000072
 21
126.65397500021911
 31
0.0
  0
POLYLINE
  5
C4
  8
DATA
  6
CONTINUOUS
 62
     7
 66
     1
 10
0.0
 20
0.0
 30
0.0
 70
   129
  0
VERTEX
  5
1DC
  8
DATA
  6
CONTINUOUS
 62
     7
 10
161.72503000000711
 20
126.8610350002191
 30
0.0
  0
VERTEX
  5
1DD
  8
DATA
  6
CONTINUOUS
 62
     7
 10
161.726392746801
 20
126.8606174688689
 30
0.0
  0
VERTEX
  5
1DE
  8
DATA
  6
CONTINUOUS
 62
     7
 10
161.7263927468012
 20
126.8606174688688
 30
0.0
 42
0.0515215183440875
  0
VERTEX
  5
1DF
  8
DATA
  6
CONTINUOUS
 62
     7
 10
161.7501300000072
 20
126.85594500021909
 30
0.0
  0
SEQEND
  5
1E0
  8
DATA
  6
CONTINUOUS
 62
     7
  0
LINE
  5
CA
  8
DATA
  6
CONTINUOUS
 62
     7
 10
158.99812000000711
 20
127.22704500021911
 30
0.0
 11
158.85102000000711
 21
127.36704500021909
 31
0.0
  0
LINE
  5
CB
  8
DATA
  6
CONTINUOUS
 62
     7
 10
159.2487300000071
 20
127.65984500021899
 30
0.0
 11
158.85102000000711
 21
127.36704500021909
 31
0.0
  0
LINE
  5
CC
  8
DATA
  6
CONTINUOUS
 62
     7
 10
159.28631000000721
 20
127.4383350002191
 30
0.0
 11
158.99812000000711
 21
127.22704500021911
 31
0.0
  0
LINE
  5
CD
  8
DATA
  6
CONTINUOUS
 62
     7
 10
159.28631000000721
 20
127.4383350002191
 30
0.0
 11
161.7261100000072
 21
126.65697500021911
 31
0.0
  0
LINE
  5
CE
  8
DATA
  6
CONTINUOUS
 62
     7
 10
161.72503000000711
 20
126.8610350002191
 30
0.0
 11
159.2487300000071
 21
127.65984500021899
 31
0.0
  0
LINE
  5
CF
  8
DATA
  6
CONTINUOUS
 62
     7
 10
161.7741100000072
 20
126.85804500021909
 30
0.0
 11
166.25000000000719
 21
127.69006500021911
 31
0.0
  0
POLYLINE
  5
D0
  8
DATA
  6
CONTINUOUS
 62
     7
 66
     1
 10
0.0
 20
0.0
 30
0.0
 70
   129
  0
VERTEX
  5
1E1
  8
DATA
  6
CONTINUOUS
 62
     7
 10
161.72503000000711
 20
126.8610350002191
 30
0.0
  0
VERTEX
  5
1E2
  8
DATA
  6
CONTINUOUS
 62
     7
 10
161.726392746801
 20
126.8606174688689
 30
0.0
  0
VERTEX
  5
1E3
  8
DATA
  6
CONTINUOUS
 62
     7
 10
161.7263927468012
 20
126.8606174688688
 30
0.0
 42
0.0515215183440875
  0
VERTEX
  5
1E4
  8
DATA
  6
CONTINUOUS
 62
     7
 10
161.7501300000072
 20
126.85594500021909
 30
0.0
  0
SEQEND
  5
1E5
  8
DATA
  6
CONTINUOUS
 62
     7
  0
LINE
  5
D6
  8
DATA
  6
CONTINUOUS
 62
     7
 10
158.7500400000072
 20
125.14994500021901
 30
0.0
 11
161.25009000000711
 21
125.14994500021901
 31
0.0
  0
LINE
  5
D7
  8
DATA
  6
CONTINUOUS
 62
     7
 10
158.7500400000072
 20
125.14994500021901
 30
0.0
 11
158.7500400000072
 21
126.64994500021911
 31
0.0
  0
LINE
  5
D8
  8
DATA
  6
CONTINUOUS
 62
     7
 10
161.25009000000711
 20
125.14994500021901
 30
0.0
 11
161.25009000000711
 21
126.64994500021911
 31
0.0
  0
LINE
  5
D9
  8
DATA
  6
CONTINUOUS
 62
     7
 10
158.7500400000072
 20
126.64994500021911
 30
0.0
 11
158.2500200000072
 21
126.64994500021911
 31
0.0
  0
LINE
  5
DA
  8
DATA
  6
CONTINUOUS
 62
     7
 10
161.25009000000711
 20
126.64994500021911
 30
0.0
 11
166.75000000000711
 21
126.64994500021911
 31
0.0
  0
LINE
  5
DB
  8
DATA
  6
CONTINUOUS
 62
     7
 10
161.2350200000071
 20
126.64095500021909
 30
0.0
 11
159.5821300000072
 21
126.64095500021909
 31
0.0
  0
LINE
  5
DC
  8
DATA
  6
CONTINUOUS
 62
     7
 10
159.5821300000072
 20
126.64095500021909
 30
0.0
 11
159.5821300000072
 21
126.9929550002191
 31
0.0
  0
LINE
  5
DD
  8
DATA
  6
CONTINUOUS
 62
     7
 10
159.5821300000072
 20
126.9929550002191
 30
0.0
 11
161.25009000000711
 21
126.64994500021911
 31
0.0
  0
LINE
  5
DE
  8
DATA
  6
CONTINUOUS
 62
     7
 10
144.25019000000711
 20
123.09994500021909
 30
0.0
 11
138.250310000007
 21
122.6499650002191
 31
0.0
  0
LINE
  5
DF
  8
DATA
  6
CONTINUOUS
 62
     7
 10
144.25019000000711
 20
122.20004500021911
 30
0.0
 11
138.250310000007
 21
122.6499650002191
 31
0.0
  0
LINE
  5
E0
  8
DATA
  6
CONTINUOUS
 62
     7
 10
144.25019000000711
 20
122.20004500021911
 30
0.0
 11
144.25019000000711
 21
123.09994500021909
 31
0.0
  0
LINE
  5
E1
  8
DATA
  6
CONTINUOUS
 62
     7
 10
144.25019000000711
 20
127.09994500021909
 30
0.0
 11
138.250310000007
 21
126.64994500021911
 31
0.0
  0
LINE
  5
E2
  8
DATA
  6
CONTINUOUS
 62
     7
 10
144.25019000000711
 20
126.20004500021911
 30
0.0
 11
138.250310000007
 21
126.64994500021911
 31
0.0
  0
LINE
  5
E3
  8
DATA
  6
CONTINUOUS
 62
     7
 10
144.25019000000711
 20
127.09994500021909
 30
0.0
 11
144.25019000000711
 21
126.20004500021911
 31
0.0
  0
LINE
  5
E4
  8
DATA
  6
CONTINUOUS
 62
     7
 10
144.25019000000711
 20
125.09994500021909
 30
0.0
 11
138.250310000007
 21
124.64994500021911
 31
0.0
  0
LINE
  5
E5
  8
DATA
  6
CONTINUOUS
 62
     7
 10
144.25019000000711
 20
124.20004500021911
 30
0.0
 11
138.250310000007
 21
124.64994500021911
 31
0.0
  0
LINE
  5
E6
  8
DATA
  6
CONTINUOUS
 62
     7
 10
144.25019000000711
 20
125.09994500021909
 30
0.0
 11
144.25019000000711
 21
124.20004500021911
 31
0.0
  0
LINE
  5
E7
  8
DATA
  6
CONTINUOUS
 62
     7
 10
144.25019000000711
 20
121.09994500021919
 30
0.0
 11
138.250310000007
 21
120.6500550002192
 31
0.0
  0
LINE
  5
E8
  8
DATA
  6
CONTINUOUS
 62
     7
 10
144.25019000000711
 20
120.20004500021921
 30
0.0
 11
138.250310000007
 21
120.6500550002192
 31
0.0
  0
LINE
  5
E9
  8
DATA
  6
CONTINUOUS
 62
     7
 10
144.25019000000711
 20
121.09994500021919
 30
0.0
 11
144.25019000000711
 21
120.20004500021921
 31
0.0
  0
LINE
  5
EA
  8
DATA
  6
CONTINUOUS
 62
     7
 10
144.25019000000711
 20
119.09994500021919
 30
0.0
 11
138.250310000007
 21
118.6500550002192
 31
0.0
  0
LINE
  5
EB
  8
DATA
  6
CONTINUOUS
 62
     7
 10
144.25019000000711
 20
118.2000650002191
 30
0.0
 11
138.250310000007
 21
118.6500550002192
 31
0.0
  0
LINE
  5
EC
  8
DATA
  6
CONTINUOUS
 62
     7
 10
144.25019000000711
 20
119.09994500021919
 30
0.0
 11
144.25019000000711
 21
118.2000650002191
 31
0.0
  0
CIRCLE
  5
ED
  8
DATA
  6
CONTINUOUS
 62
     7
 10
174.76226484427019
 20
123.5868220971968
 30
0.0
 40
0.6000200000000558
  0
CIRCLE
  5
EE
  8
DATA
  6
CONTINUOUS
 62
     7
 10
178.76226484427019
 20
123.5868220971968
 30
0.0
 40
0.5999300000000556
  0
CIRCLE
  5
EF
  8
DATA
  6
CONTINUOUS
 62
     7
 10
176.76226484427019
 20
121.0462950002191
 30
0.0
 40
0.599900000000048
  0
LINE
  5
F0
  8
DATA
  6
CONTINUOUS
 62
     7
 10
175.76226484427019
 20
127.17618500021911
 30
0.0
 11
175.76226484427019
 21
126.40030500021911
 31
0.0
  0
LINE
  5
F1
  8
DATA
  6
CONTINUOUS
 62
     7
 10
177.76226484427019
 20
127.17618500021911
 30
0.0
 11
177.76226484427019
 21
126.40030500021911
 31
0.0
  0
LINE
  5
F2
  8
DATA
  6
CONTINUOUS
 62
     7
 10
174.59625484427019
 20
125.796295000219
 30
0.0
 11
178.9271448442702
 21
125.796295000219
 31
0.0
  0
ARC
  5
F3
  8
DATA
  6
CONTINUOUS
 62
     7
 10
176.76226484427019
 20
123.0462950002191
 30
0.0
 40
3.4999118674761349
 50
106.6019797549916
 51
73.398020245008325
  0
ARC
  5
F4
  8
DATA
  6
CONTINUOUS
 62
     7
 10
176.76226484427019
 20
123.0462950002191
 30
0.0
 40
4.2492342147850737
 50
103.61146039991699
 51
76.401326097578902
  0
LINE
  5
F5
  8
DATA
  6
CONTINUOUS
 62
     7
 10
175.09126484427031
 20
126.1212850002191
 30
0.0
 11
178.4321648442702
 21
126.1212850002191
 31
0.0
  0
LINE
  5
F6
  8
DATA
  6
CONTINUOUS
 62
     7
 10
175.8621648442703
 20
127.7962950002191
 30
0.0
 11
177.6621348442703
 21
127.7962950002191
 31
0.0
  0
LINE
  5
F7
  8
DATA
  6
CONTINUOUS
 62
     7
 10
177.6621348442703
 20
127.7962950002191
 30
0.0
 11
177.6621348442703
 21
126.2351850002191
 31
0.0
  0
LINE
  5
F8
  8
DATA
  6
CONTINUOUS
 62
     7
 10
177.6621348442703
 20
126.2351850002191
 30
0.0
 11
175.8621648442703
 21
126.2351850002191
 31
0.0
  0
LINE
  5
F9
  8
DATA
  6
CONTINUOUS
 62
     7
 10
175.8621648442703
 20
126.2351850002191
 30
0.0
 11
175.8621648442703
 21
127.7962950002191
 31
0.0
  0
CIRCLE
  5
FA
  8
DATA
  6
CONTINUOUS
 62
     7
 10
176.76226484427019
 20
123.0462950002191
 30
0.0
 40
5.2499100000000256
  0
LINE
  5
FB
  8
DATA
  6
CONTINUOUS
 62
     7
 10
175.26226484427019
 20
128.07718500021909
 30
0.0
 11
175.26226484427019
 21
128.86730500021909
 31
0.0
  0
LINE
  5
FC
  8
DATA
  6
CONTINUOUS
 62
     7
 10
178.26226484427019
 20
128.86730500021909
 30
0.0
 11
178.26226484427019
 21
128.07718500021909
 31
0.0
  0
ARC
  5
FD
  8
DATA
  6
CONTINUOUS
 62
     7
 10
176.76226484427019
 20
128.1203050002191
 30
0.0
 40
1.675711490680905
 50
26.47330461095763
 51
153.5266953890424
  0
CIRCLE
  5
FE
  8
DATA
  6
CONTINUOUS
 62
     7
 10
176.76226484427019
 20
123.0462950002191
 30
0.0
 40
5.2499100000000256
  0
ARC
  5
FF
  8
DATA
  6
CONTINUOUS
 62
     7
 10
86.051411144471544
 20
125.02903867754419
 30
0.0
 40
4.4194173824158787
 50
315.00000000000063
 51
45.0
  0
ARC
  5
100
  8
DATA
  6
CONTINUOUS
 62
     7
 10
92.30141114447143
 20
118.77903867754431
 30
0.0
 40
4.4194173824158787
 50
135.0000000000004
 51
225.00027502018139
  0
ARC
  5
101
  8
DATA
  6
CONTINUOUS
 62
     7
 10
83.394257767523371
 20
125.02903867754419
 30
0.0
 40
4.4194173824158849
 50
315.00000000000063
 51
44.99999999999995
  0
ARC
  5
102
  8
DATA
  6
CONTINUOUS
 62
     7
 10
89.644267767523374
 20
118.77903867754431
 30
0.0
 40
4.4194244534893441
 50
135.000091673101
 51
225.00009167310009
  0
ARC
  5
103
  8
DATA
  6
CONTINUOUS
 62
     7
 10
154.7181100000071
 20
127.72400500021909
 30
0.0
 40
1.6756891300298029
 50
26.473303386677301
 51
153.52700145607321
  0
LINE
  5
104
  8
DATA
  6
CONTINUOUS
 62
     7
 10
153.21810000000701
 20
128.47099500021909
 30
0.0
 11
153.21810000000701
 21
127.89994500021911
 31
0.0
  0
LINE
  5
105
  8
DATA
  6
CONTINUOUS
 62
     7
 10
156.21809000000709
 20
128.47099500021909
 30
0.0
 11
156.21809000000709
 21
127.89994500021911
 31
0.0
  0
LINE
  5
106
  8
DATA
  6
CONTINUOUS
 62
     7
 10
114.25027000000679
 20
124.65000000021909
 30
0.0
 11
114.25027000000679
 21
120.65000000021909
 31
0.0
  0
LINE
  5
107
  8
DATA
  6
CONTINUOUS
 62
     7
 10
131.25027000000691
 20
125.15000000021909
 30
0.0
 11
114.25027000000679
 21
124.65000000021909
 31
0.0
  0
LINE
  5
108
  8
DATA
  6
CONTINUOUS
 62
     7
 10
131.25027000000691
 20
120.15000000021909
 30
0.0
 11
114.25027000000679
 21
120.65000000021909
 31
0.0
  0
LINE
  5
109
  8
DATA
  6
CONTINUOUS
 62
     7
 10
114.25027000000679
 20
121.65000000021909
 30
0.0
 11
88.941525568487549
 21
121.65000000021909
 31
0.0
  0
LINE
  5
10A
  8
DATA
  6
CONTINUOUS
 62
     7
 10
90.250161235443997
 20
123.65000000021909
 30
0.0
 11
114.25027000000691
 21
123.65000000021909
 31
0.0
  0
LINE
  5
10B
  8
DATA
  6
CONTINUOUS
 62
     7
 10
31.25
 20
126.15000000021909
 30
0.0
 11
31.25
 21
119.15000000021909
 31
0.0
  0
LINE
  5
10C
  8
DATA
  6
CONTINUOUS
 62
     7
 10
39.25
 20
126.5500000002191
 30
0.0
 11
39.25
 21
118.7500000002191
 31
0.0
  0
LINE
  5
10D
  8
DATA
  6
CONTINUOUS
 62
     7
 10
35.95000000000001
 20
126.5500000002191
 30
0.0
 11
35.95000000000001
 21
118.7500000002191
 31
0.0
  0
LINE
  5
10E
  8
DATA
  6
CONTINUOUS
 62
     7
 10
39.25
 20
126.5500000002191
 30
0.0
 11
35.95000000000001
 21
126.5500000002191
 31
0.0
  0
LINE
  5
10F
  8
DATA
  6
CONTINUOUS
 62
     7
 10
39.25
 20
118.7500000002191
 30
0.0
 11
35.95000000000001
 21
118.7500000002191
 31
0.0
  0
LINE
  5
110
  8
DATA
  6
CONTINUOUS
 62
     7
 10
35.95000000000001
 20
126.5500000002191
 30
0.0
 11
31.25
 21
126.15000000021909
 31
0.0
  0
LINE
  5
111
  8
DATA
  6
CONTINUOUS
 62
     7
 10
35.95000000000001
 20
118.7500000002191
 30
0.0
 11
31.25
 21
119.15000000021909
 31
0.0
  0
LINE
  5
112
  8
DATA
  6
CONTINUOUS
 62
     7
 10
54.25
 20
125.45000000021911
 30
0.0
 11
54.25
 21
119.8500000002191
 31
0.0
  0
LINE
  5
113
  8
DATA
  6
CONTINUOUS
 62
     7
 10
39.249999999999993
 20
125.95000000021911
 30
0.0
 11
48.149999999999999
 21
125.95000000021911
 31
0.0
  0
LINE
  5
114
  8
DATA
  6
CONTINUOUS
 62
     7
 10
39.249999999999993
 20
119.3500000002191
 30
0.0
 11
48.149999999999999
 21
119.3500000002191
 31
0.0
  0
LINE
  5
115
  8
DATA
  6
CONTINUOUS
 62
     7
 10
48.149999999999999
 20
125.95000000021911
 30
0.0
 11
48.149999999999999
 21
119.3500000002191
 31
0.0
  0
LINE
  5
116
  8
DATA
  6
CONTINUOUS
 62
     7
 10
54.25
 20
125.45000000021911
 30
0.0
 11
48.149999999999999
 21
125.95000000021911
 31
0.0
  0
LINE
  5
117
  8
DATA
  6
CONTINUOUS
 62
     7
 10
54.25
 20
119.8500000002191
 30
0.0
 11
48.149999999999999
 21
119.3500000002191
 31
0.0
  0
TEXT
  5
118
  8
DATA
 62
     7
 10
38.484628766599052
 20
120.6530336431954
 30
0.0
 40
1.6288411458333329
  1
CK55
 50
90.0
 41
0.7
 11
36.855787620765717
 21
120.6530336431954
 31
0.0
 73
     3
  0
LINE
  5
119
  8
DATA
  6
CONTINUOUS
 62
     7
 10
39.67374755706691
 20
122.2500000002191
 30
0.0
 11
39.67374755706691
 21
123.0500000002191
 31
0.0
  0
LINE
  5
11A
  8
DATA
  6
CONTINUOUS
 62
     7
 10
47.67374755706691
 20
123.0500000002191
 30
0.0
 11
47.67374755706691
 21
122.2500000002191
 31
0.0
  0
ARC
  5
11B
  8
DATA
  6
CONTINUOUS
 62
     7
 10
40.17374755706691
 20
123.0500000002191
 30
0.0
 40
0.5
 50
90.0
 51
180.0
  0
ARC
  5
11C
  8
DATA
  6
CONTINUOUS
 62
     7
 10
40.17374755706691
 20
122.2500000002191
 30
0.0
 40
0.5
 50
180.0
 51
270.0
  0
ARC
  5
11D
  8
DATA
  6
CONTINUOUS
 62
     7
 10
47.17374755706691
 20
123.0500000002191
 30
0.0
 40
0.5
 50
0.0
 51
90.0
  0
ARC
  5
11E
  8
DATA
  6
CONTINUOUS
 62
     7
 10
47.17374755706691
 20
122.2500000002191
 30
0.0
 40
0.5
 50
270.0
 51
0.0
  0
LINE
  5
11F
  8
DATA
  6
CONTINUOUS
 62
     7
 10
59.25
 20
124.15000000021909
 30
0.0
 11
59.25
 21
121.15000000021909
 31
0.0
  0
LINE
  5
120
  8
DATA
  6
CONTINUOUS
 62
     7
 10
54.249999999999929
 20
124.15000000021909
 30
0.0
 11
59.25
 21
124.15000000021909
 31
0.0
  0
LINE
  5
121
  8
DATA
  6
CONTINUOUS
 62
     7
 10
54.249999999999929
 20
121.15000000021909
 30
0.0
 11
59.25
 21
121.15000000021909
 31
0.0
  0
LINE
  5
122
  8
DATA
  6
CONTINUOUS
 62
     7
 10
87.593007858495866
 20
123.65000000021909
 30
0.0
 11
59.25
 21
123.65000000021909
 31
0.0
  0
LINE
  5
123
  8
DATA
  6
CONTINUOUS
 62
     7
 10
86.284372890625505
 20
121.65000000021909
 30
0.0
 11
59.25
 21
121.65000000021909
 31
0.0
  0
CIRCLE
  5
124
  8
DATA
  6
CONTINUOUS
 62
     7
 10
21.875
 20
122.65000000021909
 30
0.0
 40
3.5
  0
CIRCLE
  5
125
  8
DATA
  6
CONTINUOUS
 62
     7
 10
21.875
 20
122.65000000021909
 30
0.0
 40
3.9000000000000048
  0
CIRCLE
  5
126
  8
DATA
  6
CONTINUOUS
 62
     7
 10
21.875
 20
122.65000000021909
 30
0.0
 40
0.5999999999999944
  0
CIRCLE
  5
127
  8
DATA
  6
CONTINUOUS
 62
     7
 10
21.875
 20
124.5500000002191
 30
0.0
 40
0.4500000000000028
  0
CIRCLE
  5
128
  8
DATA
  6
CONTINUOUS
 62
     7
 10
21.875
 20
120.7500000002191
 30
0.0
 40
0.4500000000000028
  0
CIRCLE
  5
129
  8
DATA
  6
CONTINUOUS
 62
     7
 10
20.3281670999752
 20
121.5466831919543
 30
0.0
 40
0.4500000000000028
  0
CIRCLE
  5
12A
  8
DATA
  6
CONTINUOUS
 62
     7
 10
23.47287159178623
 20
123.6780108835092
 30
0.0
 40
0.4500000000000028
  0
CIRCLE
  5
12B
  8
DATA
  6
CONTINUOUS
 62
     7
 10
20.27712840821377
 20
123.6780108835092
 30
0.0
 40
0.4500000000000028
  0
CIRCLE
  5
12C
  8
DATA
  6
CONTINUOUS
 62
     7
 10
23.4218329000248
 20
121.5466831919543
 30
0.0
 40
0.4500000000000028
  0
LINE
  5
12D
  8
DATA
  6
CONTINUOUS
 62
     7
 10
47.17374755706691
 20
121.7500000002191
 30
0.0
 11
40.17374755706691
 21
121.7500000002191
 31
0.0
  0
LINE
  5
12E
  8
DATA
  6
CONTINUOUS
 62
     7
 10
40.17374755706691
 20
123.5500000002191
 30
0.0
 11
47.17374755706691
 21
123.5500000002191
 31
0.0
  0
ENDSEC
  0
EOF
